ISO-10303-21;
HEADER;
/* Generated by software containing ST-Developer
 * from STEP Tools, Inc. (www.steptools.com) 
 */

FILE_DESCRIPTION(
/* description */ (''),
/* implementation_level */ '2;1');

FILE_NAME(
/* name */ 'BH160.dxf',
/* time_stamp */ '2012-11-23T15:12:27+08:00',
/* author */ (''),
/* organization */ (''),
/* preprocessor_version */ 'ST-DEVELOPER v9',
/* originating_system */ 'UGS - NX 4.0',
/* authorisation */ '');

FILE_SCHEMA (('CONFIG_CONTROL_DESIGN'));
ENDSEC;

DATA;
#10=SHAPE_REPRESENTATION_RELATIONSHIP('None',
'relationship between AdmiFC93xioi-None and AdmiFC93xioi-None',#94,#11);
#11=ADVANCED_BREP_SHAPE_REPRESENTATION('AdmiFC93xioi-None',(#95),#271);
#12=CC_DESIGN_APPROVAL(#24,(#82));
#13=CC_DESIGN_APPROVAL(#25,(#84));
#14=CC_DESIGN_APPROVAL(#26,(#31));
#15=APPROVAL_PERSON_ORGANIZATION(#69,#24,#18);
#16=APPROVAL_PERSON_ORGANIZATION(#70,#25,#19);
#17=APPROVAL_PERSON_ORGANIZATION(#71,#26,#20);
#18=APPROVAL_ROLE('approver');
#19=APPROVAL_ROLE('approver');
#20=APPROVAL_ROLE('approver');
#21=APPROVAL_DATE_TIME(#39,#24);
#22=APPROVAL_DATE_TIME(#40,#25);
#23=APPROVAL_DATE_TIME(#41,#26);
#24=APPROVAL(#27,' ');
#25=APPROVAL(#28,' ');
#26=APPROVAL(#29,' ');
#27=APPROVAL_STATUS('not_yet_approved');
#28=APPROVAL_STATUS('not_yet_approved');
#29=APPROVAL_STATUS('not_yet_approved');
#30=CC_DESIGN_SECURITY_CLASSIFICATION(#31,(#84));
#31=SECURITY_CLASSIFICATION(' ',' ',#32);
#32=SECURITY_CLASSIFICATION_LEVEL('confidential');
#33=CC_DESIGN_DATE_AND_TIME_ASSIGNMENT(#37,#35,(#82));
#34=CC_DESIGN_DATE_AND_TIME_ASSIGNMENT(#38,#36,(#31));
#35=DATE_TIME_ROLE('creation_date');
#36=DATE_TIME_ROLE('classification_date');
#37=DATE_AND_TIME(#52,#42);
#38=DATE_AND_TIME(#53,#43);
#39=DATE_AND_TIME(#54,#44);
#40=DATE_AND_TIME(#55,#45);
#41=DATE_AND_TIME(#56,#46);
#42=LOCAL_TIME(0,0,0.,#47);
#43=LOCAL_TIME(0,0,0.,#48);
#44=LOCAL_TIME(0,0,0.,#49);
#45=LOCAL_TIME(0,0,0.,#50);
#46=LOCAL_TIME(0,0,0.,#51);
#47=COORDINATED_UNIVERSAL_TIME_OFFSET(0,0,.BEHIND.);
#48=COORDINATED_UNIVERSAL_TIME_OFFSET(0,0,.BEHIND.);
#49=COORDINATED_UNIVERSAL_TIME_OFFSET(0,0,.BEHIND.);
#50=COORDINATED_UNIVERSAL_TIME_OFFSET(0,0,.BEHIND.);
#51=COORDINATED_UNIVERSAL_TIME_OFFSET(0,0,.BEHIND.);
#52=CALENDAR_DATE(0,1,1);
#53=CALENDAR_DATE(0,1,1);
#54=CALENDAR_DATE(0,1,1);
#55=CALENDAR_DATE(0,1,1);
#56=CALENDAR_DATE(0,1,1);
#57=CC_DESIGN_PERSON_AND_ORGANIZATION_ASSIGNMENT(#65,#61,(#82,#84));
#58=CC_DESIGN_PERSON_AND_ORGANIZATION_ASSIGNMENT(#66,#62,(#86));
#59=CC_DESIGN_PERSON_AND_ORGANIZATION_ASSIGNMENT(#67,#63,(#84));
#60=CC_DESIGN_PERSON_AND_ORGANIZATION_ASSIGNMENT(#68,#64,(#31));
#61=PERSON_AND_ORGANIZATION_ROLE('creator');
#62=PERSON_AND_ORGANIZATION_ROLE('design_owner');
#63=PERSON_AND_ORGANIZATION_ROLE('design_supplier');
#64=PERSON_AND_ORGANIZATION_ROLE('classification_officer');
#65=PERSON_AND_ORGANIZATION(#79,#72);
#66=PERSON_AND_ORGANIZATION(#79,#73);
#67=PERSON_AND_ORGANIZATION(#79,#74);
#68=PERSON_AND_ORGANIZATION(#79,#75);
#69=PERSON_AND_ORGANIZATION(#79,#76);
#70=PERSON_AND_ORGANIZATION(#79,#77);
#71=PERSON_AND_ORGANIZATION(#79,#78);
#72=ORGANIZATION(' ',' ',' ');
#73=ORGANIZATION(' ',' ',' ');
#74=ORGANIZATION(' ',' ',' ');
#75=ORGANIZATION(' ',' ',' ');
#76=ORGANIZATION(' ',' ',' ');
#77=ORGANIZATION(' ',' ',' ');
#78=ORGANIZATION(' ',' ',' ');
#79=PERSON(' ',' ',' ',(' '),$,$);
#80=SHAPE_DEFINITION_REPRESENTATION(#81,#94);
#81=PRODUCT_DEFINITION_SHAPE('','',#82);
#82=PRODUCT_DEFINITION(' ','',#84,#83);
#83=DESIGN_CONTEXT('',#93,'design');
#84=PRODUCT_DEFINITION_FORMATION_WITH_SPECIFIED_SOURCE(' ',' ',#86,.NOT_KNOWN.);
#85=PRODUCT_RELATED_PRODUCT_CATEGORY('detail','',(#86));
#86=PRODUCT('AdmiFC93xioi','AdmiFC93xioi',' ',(#91));
#87=PRODUCT_CATEGORY_RELATIONSHIP(' ',' ',#89,#90);
#88=PRODUCT_CATEGORY_RELATIONSHIP('','',#90,#85);
#89=PRODUCT_CATEGORY('part',' ');
#90=PRODUCT_CATEGORY(' ','');
#91=MECHANICAL_CONTEXT(' ',#93,'mechanical');
#92=APPLICATION_PROTOCOL_DEFINITION('international standard',
'config_control_design',1994,#93);
#93=APPLICATION_CONTEXT(
'configuration controlled 3D designs of mechanical parts and assemblies
');
#94=SHAPE_REPRESENTATION('AdmiFC93xioi-None',(#190),#271);
#95=MANIFOLD_SOLID_BREP('',#96);
#96=CLOSED_SHELL('',(#105,#106,#107,#108,#109,#110,#111,#112,#113));
#97=TOROIDAL_SURFACE('',#202,12.4561633733821,1.);
#98=CONICAL_SURFACE('',#198,0.,59.9999999999996);
#99=CONICAL_SURFACE('',#200,11.4571672398796,2.56750884468791);
#100=VERTEX_LOOP('',#169);
#101=CYLINDRICAL_SURFACE('',#197,2.5);
#102=CYLINDRICAL_SURFACE('',#206,12.4999999999997);
#103=SPHERICAL_SURFACE('',#195,20.);
#104=SPHERICAL_SURFACE('',#207,20.);
#105=ADVANCED_FACE('',(#128,#116),#114,.T.);
#106=ADVANCED_FACE('',(#117,#118),#103,.T.);
#107=ADVANCED_FACE('',(#119,#120),#101,.F.);
#108=ADVANCED_FACE('',(#129,#121),#98,.F.);
#109=ADVANCED_FACE('',(#122,#130),#99,.T.);
#110=ADVANCED_FACE('',(#123,#124),#97,.F.);
#111=ADVANCED_FACE('',(#131,#125),#115,.F.);
#112=ADVANCED_FACE('',(#126,#127),#102,.T.);
#113=ADVANCED_FACE('',(#132),#104,.T.);
#114=PLANE('',#193);
#115=PLANE('',#204);
#116=FACE_BOUND('',#134,.T.);
#117=FACE_BOUND('',#135,.T.);
#118=FACE_BOUND('',#136,.T.);
#119=FACE_BOUND('',#137,.T.);
#120=FACE_BOUND('',#138,.T.);
#121=FACE_BOUND('',#100,.T.);
#122=FACE_BOUND('',#140,.T.);
#123=FACE_BOUND('',#142,.T.);
#124=FACE_BOUND('',#143,.T.);
#125=FACE_BOUND('',#145,.T.);
#126=FACE_BOUND('',#146,.T.);
#127=FACE_BOUND('',#147,.T.);
#128=FACE_OUTER_BOUND('',#133,.T.);
#129=FACE_OUTER_BOUND('',#139,.T.);
#130=FACE_OUTER_BOUND('',#141,.T.);
#131=FACE_OUTER_BOUND('',#144,.T.);
#132=FACE_OUTER_BOUND('',#148,.T.);
#133=EDGE_LOOP('',(#149));
#134=EDGE_LOOP('',(#150));
#135=EDGE_LOOP('',(#151));
#136=EDGE_LOOP('',(#152));
#137=EDGE_LOOP('',(#153));
#138=EDGE_LOOP('',(#154));
#139=EDGE_LOOP('',(#155));
#140=EDGE_LOOP('',(#156));
#141=EDGE_LOOP('',(#157));
#142=EDGE_LOOP('',(#158));
#143=EDGE_LOOP('',(#159));
#144=EDGE_LOOP('',(#160));
#145=EDGE_LOOP('',(#161));
#146=EDGE_LOOP('',(#162));
#147=EDGE_LOOP('',(#163));
#148=EDGE_LOOP('',(#164));
#149=ORIENTED_EDGE('',*,*,#174,.T.);
#150=ORIENTED_EDGE('',*,*,#175,.T.);
#151=ORIENTED_EDGE('',*,*,#176,.F.);
#152=ORIENTED_EDGE('',*,*,#174,.F.);
#153=ORIENTED_EDGE('',*,*,#175,.F.);
#154=ORIENTED_EDGE('',*,*,#177,.T.);
#155=ORIENTED_EDGE('',*,*,#177,.F.);
#156=ORIENTED_EDGE('',*,*,#176,.T.);
#157=ORIENTED_EDGE('',*,*,#178,.F.);
#158=ORIENTED_EDGE('',*,*,#178,.T.);
#159=ORIENTED_EDGE('',*,*,#179,.F.);
#160=ORIENTED_EDGE('',*,*,#180,.F.);
#161=ORIENTED_EDGE('',*,*,#179,.T.);
#162=ORIENTED_EDGE('',*,*,#180,.T.);
#163=ORIENTED_EDGE('',*,*,#181,.F.);
#164=ORIENTED_EDGE('',*,*,#181,.T.);
#165=VERTEX_POINT('',#246);
#166=VERTEX_POINT('',#248);
#167=VERTEX_POINT('',#251);
#168=VERTEX_POINT('',#254);
#169=VERTEX_POINT('',#256);
#170=VERTEX_POINT('',#259);
#171=VERTEX_POINT('',#262);
#172=VERTEX_POINT('',#265);
#173=VERTEX_POINT('',#268);
#174=EDGE_CURVE('',#165,#165,#182,.T.);
#175=EDGE_CURVE('',#166,#166,#183,.T.);
#176=EDGE_CURVE('',#167,#167,#184,.T.);
#177=EDGE_CURVE('',#168,#168,#185,.T.);
#178=EDGE_CURVE('',#170,#170,#186,.T.);
#179=EDGE_CURVE('',#171,#171,#187,.T.);
#180=EDGE_CURVE('',#172,#172,#188,.T.);
#181=EDGE_CURVE('',#173,#173,#189,.T.);
#182=CIRCLE('',#191,15.6124949959961);
#183=CIRCLE('',#192,2.5);
#184=CIRCLE('',#194,9.00000000000002);
#185=CIRCLE('',#196,2.5);
#186=CIRCLE('',#199,11.4571672398796);
#187=CIRCLE('',#201,12.4561633733821);
#188=CIRCLE('',#203,12.5000000000001);
#189=CIRCLE('',#205,12.4999999999994);
#190=AXIS2_PLACEMENT_3D('',#244,#208,#209);
#191=AXIS2_PLACEMENT_3D('',#245,#210,#211);
#192=AXIS2_PLACEMENT_3D('',#247,#212,#213);
#193=AXIS2_PLACEMENT_3D('',#249,#214,#215);
#194=AXIS2_PLACEMENT_3D('',#250,#216,#217);
#195=AXIS2_PLACEMENT_3D('',#252,#218,#219);
#196=AXIS2_PLACEMENT_3D('',#253,#220,#221);
#197=AXIS2_PLACEMENT_3D('',#255,#222,#223);
#198=AXIS2_PLACEMENT_3D('',#257,#224,#225);
#199=AXIS2_PLACEMENT_3D('',#258,#226,#227);
#200=AXIS2_PLACEMENT_3D('',#260,#228,#229);
#201=AXIS2_PLACEMENT_3D('',#261,#230,#231);
#202=AXIS2_PLACEMENT_3D('',#263,#232,#233);
#203=AXIS2_PLACEMENT_3D('',#264,#234,#235);
#204=AXIS2_PLACEMENT_3D('',#266,#236,#237);
#205=AXIS2_PLACEMENT_3D('',#267,#238,#239);
#206=AXIS2_PLACEMENT_3D('',#269,#240,#241);
#207=AXIS2_PLACEMENT_3D('',#270,#242,#243);
#208=DIRECTION('',(0.,0.,1.));
#209=DIRECTION('',(1.,0.,0.));
#210=DIRECTION('',(0.,-1.,0.));
#211=DIRECTION('',(0.,0.,-1.));
#212=DIRECTION('',(0.,1.,0.));
#213=DIRECTION('',(0.,0.,1.));
#214=DIRECTION('',(0.,-1.,0.));
#215=DIRECTION('',(0.,0.,-1.));
#216=DIRECTION('',(0.939692620785908,0.342020143325669,0.));
#217=DIRECTION('',(-0.34202014332567,0.939692620785909,0.));
#218=DIRECTION('',(0.,-1.,0.));
#219=DIRECTION('',(-1.,0.,0.));
#220=DIRECTION('',(0.,1.,0.));
#221=DIRECTION('',(0.,0.,1.));
#222=DIRECTION('',(0.,1.,0.));
#223=DIRECTION('',(0.,0.,1.));
#224=DIRECTION('',(0.,-1.,0.));
#225=DIRECTION('',(0.,-1.60246890531966E-017,-1.));
#226=DIRECTION('',(0.939692620785908,0.342020143325669,0.));
#227=DIRECTION('',(-0.342020143325669,0.939692620785909,0.));
#228=DIRECTION('',(0.939692620785908,0.342020143325669,0.));
#229=DIRECTION('',(-0.342020143325667,0.939692620785909,0.));
#230=DIRECTION('',(0.939692620785908,0.342020143325669,0.));
#231=DIRECTION('',(-0.342020143325668,0.939692620785909,0.));
#232=DIRECTION('',(0.939692620785908,0.342020143325669,0.));
#233=DIRECTION('',(-0.342020143325668,0.939692620785909,0.));
#234=DIRECTION('',(0.939692620785908,0.342020143325669,0.));
#235=DIRECTION('',(-0.342020143325668,0.939692620785909,0.));
#236=DIRECTION('',(0.939692620785908,0.342020143325669,0.));
#237=DIRECTION('',(-0.342020143325669,0.939692620785908,0.));
#238=DIRECTION('',(0.939692620785908,0.342020143325669,0.));
#239=DIRECTION('',(-0.34202014332567,0.939692620785907,0.));
#240=DIRECTION('',(0.939692620785908,0.342020143325669,0.));
#241=DIRECTION('',(-0.34202014332567,0.939692620785908,0.));
#242=DIRECTION('',(0.939692620785908,0.342020143325668,0.));
#243=DIRECTION('',(0.34202014332567,-0.939692620785908,0.));
#244=CARTESIAN_POINT('',(0.,0.,0.));
#245=CARTESIAN_POINT('',(120.,97.5,0.));
#246=CARTESIAN_POINT('',(120.,97.5,-15.6124949959961));
#247=CARTESIAN_POINT('',(120.,97.5,0.));
#248=CARTESIAN_POINT('',(120.,97.5,2.5));
#249=CARTESIAN_POINT('',(122.5,97.5,-37.5));
#250=CARTESIAN_POINT('',(136.783446865214,116.108675087326,0.));
#251=CARTESIAN_POINT('',(133.705265575283,124.5659086744,0.));
#252=CARTESIAN_POINT('',(120.,110.,0.));
#253=CARTESIAN_POINT('',(120.,114.5,0.));
#254=CARTESIAN_POINT('',(120.,114.5,2.5));
#255=CARTESIAN_POINT('',(120.,135.,0.));
#256=CARTESIAN_POINT('',(120.,115.943375672974,0.));
#257=CARTESIAN_POINT('',(120.,115.943375672974,0.));
#258=CARTESIAN_POINT('',(188.275520652857,134.850257246667,0.));
#259=CARTESIAN_POINT('',(184.356938671367,145.616472757092,0.));
#260=CARTESIAN_POINT('',(188.275520652857,134.850257246667,0.));
#261=CARTESIAN_POINT('',(189.173118345377,135.176956089091,0.));
#262=CARTESIAN_POINT('',(184.912859563125,146.881920894361,0.));
#263=CARTESIAN_POINT('',(188.233425724591,134.834935945765,0.));
#264=CARTESIAN_POINT('',(189.173118345377,135.176956089091,0.));
#265=CARTESIAN_POINT('',(184.897866553806,146.923113848915,0.));
#266=CARTESIAN_POINT('',(189.173118345377,135.176956089091,0.));
#267=CARTESIAN_POINT('',(266.227913249822,163.222607841796,0.));
#268=CARTESIAN_POINT('',(261.952661458251,174.968765601619,0.));
#269=CARTESIAN_POINT('',(275.049282429676,166.433323648736,0.));
#270=CARTESIAN_POINT('',(251.556966910027,157.882820065594,0.));
#271=(
GEOMETRIC_REPRESENTATION_CONTEXT(3)
GLOBAL_UNCERTAINTY_ASSIGNED_CONTEXT((#272))
GLOBAL_UNIT_ASSIGNED_CONTEXT((#278,#274,#273))
REPRESENTATION_CONTEXT('BH160','TOP_LEVEL_ASSEMBLY_PART')
);
#272=UNCERTAINTY_MEASURE_WITH_UNIT(LENGTH_MEASURE(2.E-005),#278,
'DISTANCE_ACCURACY_VALUE','Maximum Tolerance applied to model');
#273=(
NAMED_UNIT(*)
SI_UNIT($,.STERADIAN.)
SOLID_ANGLE_UNIT()
);
#274=(
CONVERSION_BASED_UNIT('DEGREE',#276)
NAMED_UNIT(#275)
PLANE_ANGLE_UNIT()
);
#275=DIMENSIONAL_EXPONENTS(0.,0.,0.,0.,0.,0.,0.);
#276=PLANE_ANGLE_MEASURE_WITH_UNIT(PLANE_ANGLE_MEASURE(0.0174532925),#277);
#277=(
NAMED_UNIT(*)
PLANE_ANGLE_UNIT()
SI_UNIT($,.RADIAN.)
);
#278=(
LENGTH_UNIT()
NAMED_UNIT(*)
SI_UNIT(.MILLI.,.METRE.)
);
ENDSEC;
END-ISO-10303-21;
